All tabs: 1,331,485    Guitar tabs: 608,686    Guitar pro tabs: 182,446    Chords: 247,278    Piano tabs: 36,094    Bass tabs: 120,116    Power tabs: 23,868    Drum tabs: 10,823    Lyrics: 102,174
We love you! Do you like us?
Bands » Marty Friedman » Tibet » Guitar tab

Tibet by Marty Friedman guitar tab

This is the final page that leads you directly to the Guitar Pro tab, drum tab, bass guitar tab, piano chord, etc you've chosen. This page provides information concerning Tibet guitar tab such as its format, type of tab or chord, upload date, number of views, number of downloads and rating of this tab provided by users.

If the tab you have selected is a downloadable one (mostly these are Marty Friedman Guitar Pro tabs), you need to insert so called "captcha" code and click "download" button. In case the code is correct you will be redirected to download page where your Tibet gp4 file will be prepared. If you have entered wrong "captcha" code, you will be asked to insert it once again to get your Tibet guitar tab.

If you browse all Marty Friedman tabs or open the list of tabs and chords for Tibet, you can see there are not only Guitar Pro tabs. Guitar tabs and chords, piano & power tabs, drum tabs, bass tabs - they all can be not only in Guitar Pro file format, but also in txt. In this case no special program is needed to read the tab. All you need to do it to open such Tibet tab and you will see it displayed. If you wish, you can download our free tabs in txt.

tries to expand tabs database, adding new and hot songs as well as old and beloved melodies, so our archive could suit any person. Also we try to add chords and files for different music instruments, for example, you can find Marty Friedman acoustic guitar tabs, piano chords or power tabs. Many songs like Tibet have not only Tibet guitar tab type, but provide wide selection of chords and tabs for all instruments. We also try to add more Marty Friedman Guitar Pro tabs as they can bear data for whole band including sheet music.

Our newest addition - Marty Friedman lyrics - is viewed the same. Select "lyrics" in the list of the tabs and chords and the text will be displayed on the next page.

Tibet by Marty Friedman guitar tab (text):

--- Tablatures by Yew Tabber 1.0.1 ( http://xkernel.free.fr ) --- 
Tibet From Scenes (I Think)
Marty Friedman
Tabbed By:Broc Campbell

fb:Full Bend
hb:Half Bend
qb:Quarter Bend
phbrp:Pre-half Bend Release Pull-off

                                                                       
All Acoustic
e |-------------------------------|-----------------------------------|
B |-------------------------------|-------7-9~~~--9/129--75--8hb~~~-|
G |-------------4--4h6p4----------|--6/9------------------------------|
D |-------2-4-6-----------6/9~~---|-----------------------------------|
A |----2--------------------------|-----------------------------------|
E |0------------------------------|-----------------------------------|


                                                                        

e |--------------------------------------------------------------------|
B |9-9-9~~~--9-12-9--7phbrp5--6hb~~------------------------------------|
G |----------------------------------6-8hb~~~---9/11--9h11p9--64------|
D |---------------------------------------------------------------5hb~-|
A |--------------------------------------------------------------------|
E |--------------------------------------------------------------------|


                                                                       

e |---------------------------------|---------------------------------|
B |5-7-9---12-12/1412--9-7--12~~~--|-97~--12/1412--9h12p97--9-12--|
G |---------------------------------|---------------------------------|
D |---------------------------------|---------------------------------|
A |---------------------------------|---------------------------------|
E |---------------------------------|---------------------------------|


                                                    

e |------------------------------------------------|
B |-------------------------------------12---------|
G |10hb~~~--11~~~--13--11--9------14~~-----13~~~~--|
D |---------------------------11-------------------|
A |------------------------------------------------|
E |------------------------------------------------|


                                                               
Fill 1                           Repeat begining W/Harmony an octave higher
e |------------------------------|----------------------------|
B |------------------------------|----------------------------|
G |------------------------11p9--|-------------%--------------|
D |------14p119~-----11p9-------|-------------%--------------|
A |14p11-----------14------------|----------------------------|
E |------------------------------|----------------------------|


                                                                     
  Rake-!
e |--------------------11-9------------------------|----------------|
B |---9-12-12fb~~~~----------12-9------9-12-12~~~--|--9/12--127~~~-|
G |--9-----------------------------11--------------|----------------|
D |11----------------------------------------------|----------------|
A |------------------------------------------------|----------------|
E |------------------------------------------------|----------------|


                                                                      
                                   Rake---!
e |--------------------------------|----------12~~---16~~---16-14-12-|
B |7-9-7h9p7-5/7-----------7/9~~~--|-----9-12------------------------|
G |--------------6h9p6-4/6---------|----9----------------------------|
D |--------------------------------|--11-----------------------------|
A |--------------------------------|---------------------------------|
E |--------------------------------|---------------------------------|


                                                         

e |11-12--11-9-11~~~--11-12-9~~---11--12--9-11-14-16~~~-|
B |-----------------------------------------------------|
G |-----------------------------------------------------|
D |-----------------------------------------------------|
A |-----------------------------------------------------|
E |-----------------------------------------------------|


                                                                   

e |------------------------||-------------------------------------|
B |------------------------||-------------------------------------|
G |-----------%------------||-------9-11fb~~~r(11)~~~--9--9h11p9--|
D |-----------%------------||-9h11--------------------------------|
A |------------------------||-------------------------------------|
E |------------------------||-------------------------------------|


                                                      

e |-------------------------------------|------------| This is the end
B |-------------------------------------|------------| and then it 
G |------9-11qbr(11)~~~--9~~----9h11p9--|-9-8--8-6~~-| transitions into
D |9h11----------------------11---------|------------| Angel which i 
A |-------------------------------------|------------| have also tabbed
E |-------------------------------------|------------|
Band nameMarty Friedman »
Song nameTibet »
Tab typeGuitar tab »
Added05/28/2008
Size4.92 Kb
File formattxt
Views/Loads1/2
Rate it
Rating: 0
Please, enter the code for download file: Wrong code.


Add comment:


Comments (1)
jack

2017-05-03 18:18:38

Good