All tabs: 1,331,485    Guitar tabs: 608,686    Guitar pro tabs: 182,446    Chords: 247,278    Piano tabs: 36,094    Bass tabs: 120,116    Power tabs: 23,868    Drum tabs: 10,823    Lyrics: 102,174
We love you! Do you like us?
Bands » Zyklon » Zycloned » Guitar tab

Zycloned by Zyklon guitar tab

This is the final page that leads you directly to the Guitar Pro tab, drum tab, bass guitar tab, piano chord, etc you've chosen. This page provides information concerning Zycloned guitar tab such as its format, type of tab or chord, upload date, number of views, number of downloads and rating of this tab provided by users.

If the tab you have selected is a downloadable one (mostly these are Zyklon Guitar Pro tabs), you need to insert so called "captcha" code and click "download" button. In case the code is correct you will be redirected to download page where your Zycloned gp4 file will be prepared. If you have entered wrong "captcha" code, you will be asked to insert it once again to get your Zycloned guitar tab.

If you browse all Zyklon tabs or open the list of tabs and chords for Zycloned, you can see there are not only Guitar Pro tabs. Guitar tabs and chords, piano & power tabs, drum tabs, bass tabs - they all can be not only in Guitar Pro file format, but also in txt. In this case no special program is needed to read the tab. All you need to do it to open such Zycloned tab and you will see it displayed. If you wish, you can download our free tabs in txt.

tries to expand tabs database, adding new and hot songs as well as old and beloved melodies, so our archive could suit any person. Also we try to add chords and files for different music instruments, for example, you can find Zyklon acoustic guitar tabs, piano chords or power tabs. Many songs like Zycloned have not only Zycloned guitar tab type, but provide wide selection of chords and tabs for all instruments. We also try to add more Zyklon Guitar Pro tabs as they can bear data for whole band including sheet music.

Our newest addition - Zyklon lyrics - is viewed the same. Select "lyrics" in the list of the tabs and chords and the text will be displayed on the next page.

Zycloned by Zyklon guitar tab (text):

#----------------------------------PLEASE NOTE---------------------------------#
#This file is the author's own work and represents their interpretation of the #
#song. You may only use this file for private study, scholarship, or research. #
#------------------------------------------------------------------------------#

  
  
Artist: Zyklon
Album: World OV Worms
Song: Zycloned

Copyright (C) (Candlight) (2001)

Tabbed By: Henry Casas (BaneOfExistance@aol.com)

.  - Palm mute           /  - slide up to
  - Slide down to       ~  - vibrato
H  - hammer on           b  - Bend
P  - pull off            Suffixes for bend
T  - tap                 f  - full bend    h - half bend
Ph - pinched harmonic    q  - quarter bend t - tap bend
*  - See comment         ^  - Hold bend    r release bend
X  - Stuccatto           ~  - vibrato bend
,  - Slight palm mute    () - ghost note, sustained note
"  - Tremolo note         - Trill

Tune to Drop C (CGCFAD)

Riff 1 (volume gradually fading in)

D|--------------|
A|--------------|
F|--------------|
C|--2222-2------|
G|--2222-2------|
C|--2222-2------|
    ....

Riff 2                        2nd Time add in

D|----------------|---------------------|
A|----------------|---------------------|
F|----------------|---------------------|
C|----------------|-4-444-4-333-3-333-3-|
G|-----------2”1”-|-2-222-2-111-1-111-1-|
C|-2”3”5”6”2”-----|---------------------|
   . . . . . . .      ...   ...   ...

Riff 3
Guitar 1

D|----------|
A|----------|
F|----------|
C|-4”-3”/7-6|
G|-2--1-/5-4|
C|----------|

Guitar 2

D|-2”-------------|
A|---3”-----------|
F|-----4”---------|
C|-------4”-------|
G|---------5”-2”--|
C|----------------|

Riff 4
Guitar 1                1st end        2nd end   Fill 1

D|-------------|----------|----------|------|
A|-------------|----------|----------|------|
F|-------------|----------|----------|------|
C|-4”/7----4”/-|----8-----|----10----|--(2)-|
G|-2-/5----2-/-|----6-----|----8-----|--(2)-|
C|-------------|----------|----------|--(2)-|

Guitar 2                    Fill 1

D|-2”--------------|--------|
A|---3”------------|--------|
F|-----4”----------|--------|
C|-------4”--------|--(2)---|
G|---------5”-2”---|--(2)---|
C|-----------------|--(2)---|

 The song fades into the techno industrial part for a few seconds....

Riff 5
Guitar 1 & 2

D|--------------------------|
A|--------------------------|
F|--------------------------|
C|-2-22222-2-22222-2-(0)(3)-|
G|-2-22222-2-22222-2-(0)(3)-|
C|-2-22222-2-22222-2-(0)(3)-|
     ..... . ..... .

Guitar 2 (after 3rd time)

                          End 1     End 2
D|-(0)10----------|-------|---12---|
A|------10-12-13--|--13---|---13---|
F|----------------|-------|--------|
C|----------------|-------|--------|
G|----------------|-------|--------|
C|----------------|-------|--------|

Riff 6
   Fill 2
D|-----------|-----------------|
A|-----------|-----------------|
F|-(2)(0)(3)-|-----------------|
C|-(2)(0)(3)-|-2-2222-(0)-(3)--|
G|-(2)(0)(3)-|-2-2222-(0)-(3)--|
C|-(2)(0)(3)-|-2-2222-(0)-(3)--|
                 ....

Riff 7

D|----------------------------------------------------|
A|----------------------------------------------------|
F|----------------------------------------------------|
C|-2-222-2-000-0-333-3-2-222-2-2-222-2-6-666-6-666-6--|
G|-2-222-2-000-0-333-3-2-222-2-2-222-2-6-666-6-666-6--|
C|-2-222-2-000-0-333-3-2-222-2-2-222-2-6-666-6-666-6--|
     ...   ...   ...     ...     ...     ...   ...

Riff 8

D|------------|
A|------------|
F|------------|
C|-2”0”3”2”6”-|
G|-2-0-3-2-6--|
C|-2-0-3-2-6--|

Riff 9

D|-----------------------|
A|-----------------------|
F|-----------------------|
C|-2”1”/4”3-2”1”/4”3-|
G|-2-1-/4-3-2-1-/4-3-|
C|-2-1-/4-3-2-1-/4-3-|


Riff 10
Guitar 1
               End 1 End 2
D|------------|-----|-----|
A|------------|-----|-----|
F|------------|-----|-----|
C|-6”/9--6”/--|-10--|-12--|
G|-4-/7--4-/--|-8---|-10--|
C|------------|-----|-----|

Guitar 2

D|-4”---------------|
A|---5”-------------|
F|-----6”-----------|
C|-------6”---------|
G|---------7”4”-----|
C|------------------|

Riff 11

D|------------------|
A|------------------|
F|------------------|
C|-(6)(5)-2222------|
G|-(4)(3)-2222------|
C|--------2222------|
          ....

Song Structure
Riff 1x16
Riff 2x10
Riff 3x2
Riff 4x8(8th time with fill 1)
Riff 5x6
Riff 6x3(with fill 2 only first time)
Riff 7x4
Riff 8x4
Riff 9x2
Riff 7x2
Riff 8x2
Riff 4x8(no fill 1)
Riff 10x4
Riff 11x1

  

For more free tablature visit www.directTABS.com
Band nameZyklon »
Song nameZycloned »
Tab typeGuitar tab »
Added07/15/2008
Size4.41 Kb
File formattxt
Views/Loads1/0
Rate it
Rating: 0
Please, enter the code for download file: Wrong code.


Add comment: