All tabs: 1,331,485    Guitar tabs: 608,686    Guitar pro tabs: 182,446    Chords: 247,278    Piano tabs: 36,094    Bass tabs: 120,116    Power tabs: 23,868    Drum tabs: 10,823    Lyrics: 102,174
We love you! Do you like us?
Bands » Yattering » Exterminate » Guitar tab

Exterminate by Yattering guitar tab

This is the final page that leads you directly to the Guitar Pro tab, drum tab, bass guitar tab, piano chord, etc you've chosen. This page provides information concerning Exterminate guitar tab such as its format, type of tab or chord, upload date, number of views, number of downloads and rating of this tab provided by users.

If the tab you have selected is a downloadable one (mostly these are Yattering Guitar Pro tabs), you need to insert so called "captcha" code and click "download" button. In case the code is correct you will be redirected to download page where your Exterminate gp4 file will be prepared. If you have entered wrong "captcha" code, you will be asked to insert it once again to get your Exterminate guitar tab.

If you browse all Yattering tabs or open the list of tabs and chords for Exterminate, you can see there are not only Guitar Pro tabs. Guitar tabs and chords, piano & power tabs, drum tabs, bass tabs - they all can be not only in Guitar Pro file format, but also in txt. In this case no special program is needed to read the tab. All you need to do it to open such Exterminate tab and you will see it displayed. If you wish, you can download our free tabs in txt.

tries to expand tabs database, adding new and hot songs as well as old and beloved melodies, so our archive could suit any person. Also we try to add chords and files for different music instruments, for example, you can find Yattering acoustic guitar tabs, piano chords or power tabs. Many songs like Exterminate have not only Exterminate guitar tab type, but provide wide selection of chords and tabs for all instruments. We also try to add more Yattering Guitar Pro tabs as they can bear data for whole band including sheet music.

Our newest addition - Yattering lyrics - is viewed the same. Select "lyrics" in the list of the tabs and chords and the text will be displayed on the next page.

Exterminate by Yattering guitar tab (text):

EXTERMINATE
                            As recorded by Yattering
                     (From the 2000 Album MURDERS CONCEPT)
                      Copyright (c) Season of Mist 2000

Words and Music by Yattering
Arranged by Yattering
Transcribed by Steve Rubaszek
Version 1.0 - November 13, 2005

*NOTE*
This song is labeled "Inanimate" (Track 5) on the cd packet,
but the song is actually "Life For Life".


Gtr I (D G C F A D) - Untitled
Gtr II (D G C F A D) - Untitled


 Drum intro
  Q=260
 4/4
  Gtrs I, II
|-----|
|-----|
|-----|
|-----|
|-----|
|-----|


   Verse
||---------------|----------------|--------------|------------------||
||o--------------|----------------|--------------|-----------------o||
||---------------|----------------|--------------|------------------||
||---------------|----------------|--------------|------------------||
||o-3--3S4S3--3--|--------7h8-----|-3--3S4S3--3--|--------7h8------o||
||--1---------1--|-8h9-6------7p6-|-1---------1--|-8h9-6------7p6---||


|--------------|--------------|---------------------|---------------------|
|--------------|--------------|---------------------|---------------------|
|--------------|--------------|---------------------|---------------------|
|--------------|--------------|---------------------|---------------------|
|-3--3S4S3--3--|-3--3S4S3--3--|-------6h7-------6h7-|-------1h3-------1h3-|
|-1---------1--|-1---------1--|-6h7h8-----6h7h8-----|-2h3h4-----2h3h4-----|


                                                     6/4
|--------------|--------------|---------------------|------------------------|
|--------------|--------------|---------------------|------------------------|
|--------------|--------------|---------------------|------------------------|
|--------------|--------------|---------------------|------------------------|
|-3--3S4S3--3--|-3--3S4S3--3--|-------6h7-------6h7-|-------1h3-------3------|
|-1---------1--|-1---------1--|-5h6h7-----5h6h7-----|-2h3h4-----2h3h4--------|


 Verse
 4/4           6/4
  PM-------|
|-------------|-------------------------|-----|
|-------------|-------------------------|-----|
|-------------|-\--------\--------|-----|
|-------------|-\--------\--------|-----|
|-6--5--7--8--|-\--6--7--\--6--7--|-----|
|-4--3--5--6--|-------4--5--------4--5--|-----|


   4/4
||----------------------|---------------------|
||o---------------------|---------------------|
||----------------------|---------------------|
||----------------------|---------------------|
||o-------6h7-------6h7-|-------4h5-------4h5-|
||--5h6h7-----5h6h7-----|-3h4h5-----3h4h5-----|


  PM------------------------------|
|-----------------|------------------||
|-----------------|-----------------o||
|-----------------|------------------||
|-----------------|------------------||
|-7-7-7-7-7-7-7-7-|-5-5-5-5-5-5-5-5-o||
|-5-5-5-5-5-5-5-5-|-3-3-3-3-3-3-3-3--||


|-----------------|-----------------|
|-----------------|-----------------|
|-----------------|-----------------|
|-------------5p0-|-------------5p0-|
|-----2h3-4h5-----|-----2h3-4h5-----|
|-3h4-------------|-3h4-------------|


  PM-------|
|-------------|-------------------|-----------|
|-------------|-------------------|-----------|
|-------------|-\--------\--|-----------|
|----------4--|-\--------\--|-----------|
|-5--5--5--2--|-\--6--7--\--|-6--7------|
|-3--3--3-----|-------4--5--------|-4--5------|


   Verse
   9/4
    PM--------------------|       PM--|
||--------------------------------------------|
||o-------------------------------------------|
||--------------------------------------------|
||-----------------------------5--------6--7--|
||o-------------------------7-----0-0-0-------|
||--7-7-7-4-4-4-5-5-5-4-4-4-------------------|


  PM--------------------|       PM--|
                                              4x
|---------------------------------------------||
|--------------------------------------------o||
|---------------------------------------------||
|----------------------------5--------6--7----||
|-------------------------7-----0-0-0--------o||
|-7-7-7-4-4-4-5-5-5-4-4-4---------------------||


 Verse
 5/4               10/4
    PM-------|                              PM-------|
|---------------||---------------------------------------||
|---------------||o-------------------------------------o||
|---------------||--\--------\---------------------||
|---------------||--\--------\---------------------||
|---6--5--7--8--||o-\--6--7--\--6--7--6--5--7--8--o||
|---4--3--5--6--||--------4--5--------4--5--4--3--5--6---||


   6/4
                                    PM-------|
                                                 3x
||--------------------------|--------------------||
||o-------------------------|-------------------o||
||--\--------\--------|--------------------||
||--\--------\--------|--------------------||
||o-\--6--7--\--6--7--|-------6--5--7--8--o||
||--------4--5--------4--5--|-6\----4--3--5--6---||


 4/4
|-------------------|-------------|
|-------------------|-------------|
|-\--------\--|-------------|
|-\--------\--|-------------|
|-\--6--7--\--|-6--7--------|
|-------4--5--------|-4--5--6\----|


   Bridge
   6/4
    Gtr I
    PM-|      PM-|        PM-|     PM-|
||----------------------|--------------------||-|
||o---------------------|-------------------o||-|
||----------------------|--------------------||-|
||---------5---------6--|-------4------------||-|
||o---------------------|----------------8--o||-|
||--4--5------4--5------|-4--5-----4--5------||-|
|
|   Gtr II
||----------------------|--------------------||-|
||o---------------------|-------------------o||-|
||----------------------|--------------------||-|
||--------10--------11--|-------9--------8---||-|
||o---------------------|-------------------o||-|
||--7--8------7--8------|-7--8-----7--8------||-|


||----------------------------|--------------------------||
||o---------------------------|-------------------------o||
||----------------------------|--------------------------||
||-----------5-5----------6-6-|---------4-4--------------||
||o---------------------------|---------------------8-8-o||
||--4-4-5-5------4-4-5-5------|-4-4-5-5-----4-4-5-5------||
|
||----------------------------|--------------------------||
||o---------------------------|-------------------------o||
||----------------------------|--------------------------||
||----------10-----------11---|---------9-----------8----||
||o---------------------------|-------------------------o||
||--7---8--------7---8--------|-7---8-------7---8--------||


||--------------------------|---------------------------||-|
||o-------------------------|--------------------------o||-|
||--------------------------|---------------------------||-|
||-----------4-----------7--|----------4-----------9\---||-|
||o-------------------------|--------------------------o||-|
||---5---6-------5---6------|--5---6-------5---6--------||-|
|
||--------------------------|---------------------------||-|
||o-------------------------|--------------------------o||-|
||--------------------------|---------------------------||-|
||----------11----------14--|---------11----------16\---||-|
||o-------------------------|--------------------------o||-|
||--12--13------12--13------|-12--13------12--13--------||-|


||------------------------------------|---------------------------------------||
||o-----------------------------------|--------------------------------------o||
||------------------------------------|---------------------------------------||
||--------------4--4-------------7--7-|-------------4--4-------------9--9\----||
||o-----------------------------------|--------------------------------------o||
||---5--5--6--6------5--5--6--6-------|--5--5--6--6-------5--5--6--6----------||
|
||------------------------------------|---------------------------------------||
||o-----------------------------------|--------------------------------------o||
||------------------------------------|---------------------------------------||
||-------------11-11------------14-14-|------------11-11------------16-16\----||
||o-----------------------------------|--------------------------------------o||
||--12-12-13-13-----12-12-13-13-------|-12-12-13-13------12-12-13-13----------||


   Breakdown
   4/4
    Gtrs I, II
    PM-|    PM
                                                              4x
||-------------|-------------------------|-------------|------||
||o------------|-------------------------|-------------|-----o||
||-------------|-------------------------|-------------|------||
||-------------|-5-5-5-5-5-5-5-5-5-5-5-5-|-------------|------||
||o-4--5----5--|-------------------------|----5-----7--|-----o||
||--2--3----3--|-------------------------|-3-----5-----|------||


   10/4
                        PM---|                          PM---|
||--------------------------------|---------------------------------||
||o-------------------------------|--------------------------------o||
||-----0-------------0------------|----0-------------0--------------||
||--5--0---------5-5-0------------|-5--0---------5-5-0--------------||
||o-3------------3-3--------------|-3------------3-3---------------o||
||--------0-------------0-0--2-3--|-------0-------------0-0--2-3----||


  PM---|
|---------------|
|---------------|
|---------------|
|---------------|
|---------------|
|-0-0--2-3------|


   Verse
   4/4
||---------------|----------------|--------------|-----------------||
||o--------------|----------------|--------------|----------------o||
||---------------|----------------|--------------|-----------------||
||---------------|----------------|--------------|-----------------||
||o-3--3S4S3--3--|--------7h8-----|-3--3S4S3--3--|--------7h8-----o||
||--1---------1--|-8h9-6------7p6-|-1---------1--|-8h9-6------7p6--||


|--------------|--------------|---------------------|---------------------|
|--------------|--------------|---------------------|---------------------|
|--------------|--------------|---------------------|---------------------|
|--------------|--------------|---------------------|---------------------|
|-3--3S4S3--3--|-3--3S4S3--3--|-------6h7-------6h7-|-------1h3-------1h3-|
|-1---------1--|-1---------1--|-6h7h8-----6h7h8-----|-2h3h4-----2h3h4-----|


                                                     6/4
|--------------|--------------|---------------------|------------------------|
|--------------|--------------|---------------------|------------------------|
|--------------|--------------|---------------------|------------------------|
|--------------|--------------|---------------------|------------------------|
|-3--3S4S3--3--|-3--3S4S3--3--|-------6h7-------6h7-|-------1h2-------1------|
|-1---------1--|-1---------1--|-5h6h7-----5h6h7-----|-2h3h4-----2h3h4--------|


 4/4
|-----|
|-----|
|-----|
|-----|
|-----|
|-----|


 Breakdown
  Q=220
|-------------------|-------------------|
|-------------------|-------------------|
|-------------------|-------------------|
|-------------------|-------------------|
|-------------3--2--|-------------3--2--|
|-6p5p4-5p4p3-1--0--|-6p5p4-5p4p3-1--0--|


|-------------------|---------------------------|
|-------------------|---------------------------|
|-------------------|---------------------------|
|-------------------|---------------------------|
|-------------3--2--|---------------------------|
|-6p5p4-5p4p3-1--0--|-6p5p4-5p4p3-1h2h3-2h3h4---|


                                                            4x
||---------------------------|------------------------------||
||o--------------------------|-----------------------------o||
||---------------------------|------------------------------||
||---------------------------|------------------------------||
||o--------------------------|-----------------------------o||
||--6p5p4-5p4p3-5h6h8-7h8h10-|-6h7h9-8h9h11-7h8h10-8h9h12---||


||--------------------|-------------------|
||o-------------------|-------------------|
||--------------------|-------------------|
||--------------------|-------------------|
||o-------------3--2--|-------------3--2--|
||--6p5p4-5p4p3-1--0--|-6p5p4-5p4p3-1--0--|


|-------------------|---------------------------||
|-------------------|--------------------------o||
|-------------------|---------------------------||
|-------------------|---------------------------||
|-------------3--2--|--------------------------o||
|-6p5p4-5p4p3-1--0--|-6p5p4-5p4p3-1h2h3-2h3h4---||


||---------------------------|------------------------------||
||o--------------------------|-----------------------------o||
||---------------------------|------------------------------||
||---------------------------|------------------------------||
||o--------------------------|-----------------------------o||
||--6p5p4-5p4p3-5h6h8-7h8h10-|-6h7h9-8h9h11-7h8h10-8h9h12---||


 Outro
               Q=260
 9/8              4/4
  PM----|          PM----------------------------------|
                                                                      4x
|--------------||--------------------------|--------------------------||
|--------------||o-------------------------|-------------------------o||
|--------------||--------------------------|--------------------------||
|--------------||--------------------------|--------------------------||
|-2-2-2-2------||o-------------4-5-6-5-6-7-|-------------6-7-8-7-8-9-o||
|-0-0-0-0------||--6-5-4-5-4-3-------------|-6-5-4-5-4-3--------------||


    PM-------------------------------------------------|
||--------------|-------------|-------------|---------------||
||o-------------|-------------|-------------|--------------o||
||--------------|-------------|-------------|---------------||
||--------------|-------------|-------------|---------------||
||o-6--5--6--5--|-6--5--7--8--|-6--5--6--5--|-6--5--4--3---o||
||--6--5--6--5--|-6--5--7--8--|-6--5--6--5--|-6--5--4--3----||


    PM----------------------------------|
                                                        4x
||--------------------------|---------------------------||
||o-------------------------|--------------------------o||
||--------------------------|---------------------------||
||--------------------------|---------------------------||
||o-------------4-5-6-5-6-7-|-------------6-7-8-7-8-9--o||
||--6-5-4-5-4-3-------------|-6-5-4-5-4-3---------------||


    PM-------------------------------------------------|
||--------------|-------------|-------------|---------------||
||o-------------|-------------|-------------|--------------o||
||--------------|-------------|-------------|---------------||
||--------------|-------------|-------------|---------------||
||o-6--5--6--5--|-6--5--7--8--|-6--5--6--5--|-6--5--4--3---o||
||--6--5--6--5--|-6--5--7--8--|-6--5--6--5--|-6--5--4--3----||


|----------|---------|---------|---------|-----*|
|----------|---------|---------|---------|-----*|
|----------|---------|---------|---------|-----*|
|----------|---------|---------|---------|-----*|
|-0--------|---------|---------|---------|-----*|
|-0--------|---------|---------|---------|-----*|


Tablature Legend
----------------
 h   - hammer-on
 p   - pull-off
 b   - bend
 pb  - pre-bend
 r   - bend release (if no number after the r, then release immediately)
 /  - slide into or out of (from/to "nowhere")
 s   - legato slide
 S   - shift slide
  - natural harmonic
[n]  - artificial harmonic
n(n) - tapped harmonic
 ~   - vibrato
 tr  - trill
 T   - tap
 TP  - trem. picking
 PM  - palm muting
n/  - tremolo bar dip; n = amount to dip
 n  - tremolo bar down
 n/  - tremolo bar up
/n  - tremolo bar inverted dip
 =   - hold bend; also acts as connecting device for hammers/pulls
   - volume swell (louder/softer)
 x   - on rhythm slash represents muted slash
 o   - on rhythm slash represents single note slash

Misc Legend
-----------
 |  - bar
||  - double bar
||o - repeat start
o|| - repeat end
*|  - double bar (ending)
 :  - bar (freetime)
 $  - Segno
 &  - Coda
Tempo markers -  = BPM(8/16=s8/s16),
where s8 = swing 8ths, s16 = swing 16ths
Band nameYattering »
Song nameExterminate »
Tab typeGuitar tab »
Added07/14/2008
Size16.15 Kb
File formattxt
Views/Loads5/0
Rate it
Rating: 0
Please, enter the code for download file: Wrong code.


Add comment: