All tabs: 1,331,485    Guitar tabs: 608,686    Guitar pro tabs: 182,446    Chords: 247,278    Piano tabs: 36,094    Bass tabs: 120,116    Power tabs: 23,868    Drum tabs: 10,823    Lyrics: 102,174
We love you! Do you like us?
Bands » The Youth Ahead » One Hit Song » Guitar tab

One Hit Song by The Youth Ahead guitar tab

This is the final page that leads you directly to the Guitar Pro tab, drum tab, bass guitar tab, piano chord, etc you've chosen. This page provides information concerning One Hit Song guitar tab such as its format, type of tab or chord, upload date, number of views, number of downloads and rating of this tab provided by users.

If the tab you have selected is a downloadable one (mostly these are The Youth Ahead Guitar Pro tabs), you need to insert so called "captcha" code and click "download" button. In case the code is correct you will be redirected to download page where your One Hit Song gp4 file will be prepared. If you have entered wrong "captcha" code, you will be asked to insert it once again to get your One Hit Song guitar tab.

If you browse all The Youth Ahead tabs or open the list of tabs and chords for One Hit Song, you can see there are not only Guitar Pro tabs. Guitar tabs and chords, piano & power tabs, drum tabs, bass tabs - they all can be not only in Guitar Pro file format, but also in txt. In this case no special program is needed to read the tab. All you need to do it to open such One Hit Song tab and you will see it displayed. If you wish, you can download our free tabs in txt.

tries to expand tabs database, adding new and hot songs as well as old and beloved melodies, so our archive could suit any person. Also we try to add chords and files for different music instruments, for example, you can find The Youth Ahead acoustic guitar tabs, piano chords or power tabs. Many songs like One Hit Song have not only One Hit Song guitar tab type, but provide wide selection of chords and tabs for all instruments. We also try to add more The Youth Ahead Guitar Pro tabs as they can bear data for whole band including sheet music.

Our newest addition - The Youth Ahead lyrics - is viewed the same. Select "lyrics" in the list of the tabs and chords and the text will be displayed on the next page.

One Hit Song by The Youth Ahead guitar tab (text):

HottestTabs [http://www.hottesttabs.com]





Band: The Youth Ahead

Album: The Oneder Years

Song: One Hit Song

Tabbed by: Dan O'Donnell

E-mail: xxxloserkiddxxx@hotmail.com







---------

Key

---------



> = Hit a few times

---------





     INTRO  

G|-----------------------------------------------------------------------------|

D|-----------------------------------------------------------------------------|

A|------------5-5-5-55--3-3-3-33--5-5-5-55--3-3-3-33--7-7-7-77--5-5-5-55-5-55--|

E|---3-3-3-33------------------------------------------------------------------|





     Verse  

G|--------------------------------------------------------------------------------|

D|----------------------------------------------------------------------4-5-6-5---|

A|-------5>-3>-5>-3>-7>-5>------------5>-3>-5>-3>-7>-5>-----5>-3>-5>-3>---------5-|

E|----3>-------------------5--5--5-5-------------------3>-------------------------|





     Chorus  

G|-----------------------------------------------------------------------------|

D|-----------------------------------------------------------------------------|

A|------5>-3>-5>-3>-7>-5>--------------------------------------------------------|

E|---3>------------------------------------------------------------------------|





     Bridge

G|------------------------------------------------------------------------|

D|----------------4-5-6-5-------------------------------------------------|

A|------5>-3>-7>----------5-----------------------------------------------|

E|---3>-------------------------------------------------------------------|





     Thing after bridge

G|-------------------------------------------------------------------------|

D|-------------------------------------------------------------------------|

A|-----5>-3>-5>------------------------------------------------------------|

E|---3>--------------------------------------------------------------------|





     Outro

G|-------------------------------------------------------------------------|

D|--------------4-5-6-5----------------------------------------------------|

A|-----5>-3>-5>---------5--------------------------------------------------|

E|---3>--------------------------------------------------------------------|





      End on

G|-------------|

D|-------------|

A|-------------|

E|----3--------|





---------

Order

---------



Intro 2x's

Verse 1x's

Chorus 2x's

Verse 1x's

Chorus 2x's

Bridge 2x's

Thing after bridge 3x's

Outro 2x's

Chorus 2x's

Outro 4x's

End on 1x's

---------

 I think that is right. Thats how I play it.. Question, comments, corrections. 

Please feel free to Email me.

    Dan
Band nameThe Youth Ahead »
Song nameOne Hit Song »
Tab typeGuitar tab »
Added07/14/2008
Size2.74 Kb
File formattxt
Views/Loads1/0
Rate it
Rating: 0
Please, enter the code for download file: Wrong code.


Add comment: