All tabs: 1,331,485    Guitar tabs: 608,686    Guitar pro tabs: 182,446    Chords: 247,278    Piano tabs: 36,094    Bass tabs: 120,116    Power tabs: 23,868    Drum tabs: 10,823    Lyrics: 102,174
We love you! Do you like us?
Bands » The Who » Summertime Blues » Bass tab

Summertime Blues by The Who bass tab

This is the final page that leads you directly to the Guitar Pro tab, drum tab, bass guitar tab, piano chord, etc you've chosen. This page provides information concerning Summertime Blues bass tab such as its format, type of tab or chord, upload date, number of views, number of downloads and rating of this tab provided by users.

If the tab you have selected is a downloadable one (mostly these are The Who Guitar Pro tabs), you need to insert so called "captcha" code and click "download" button. In case the code is correct you will be redirected to download page where your Summertime Blues gp4 file will be prepared. If you have entered wrong "captcha" code, you will be asked to insert it once again to get your Summertime Blues bass tab.

If you browse all The Who tabs or open the list of tabs and chords for Summertime Blues, you can see there are not only Guitar Pro tabs. Guitar tabs and chords, piano & power tabs, drum tabs, bass tabs - they all can be not only in Guitar Pro file format, but also in txt. In this case no special program is needed to read the tab. All you need to do it to open such Summertime Blues tab and you will see it displayed. If you wish, you can download our free tabs in txt.

tries to expand tabs database, adding new and hot songs as well as old and beloved melodies, so our archive could suit any person. Also we try to add chords and files for different music instruments, for example, you can find The Who acoustic guitar tabs, piano chords or power tabs. Many songs like Summertime Blues have not only Summertime Blues bass tab type, but provide wide selection of chords and tabs for all instruments. We also try to add more The Who Guitar Pro tabs as they can bear data for whole band including sheet music.

Our newest addition - The Who lyrics - is viewed the same. Select "lyrics" in the list of the tabs and chords and the text will be displayed on the next page.

Summertime Blues by The Who bass tab (text):

The Who - Summertime Blues tab for bass
tuneing is G,D,A,E

"RATE THIS ONE IT WAS HARD" also hard to play right


|------------------------------------9\7----------------------------|
|-------------------5-5-6-7------0----------------------------------|
|--0-5-----555500-7---------0-5h7--0-------055555-7-5---------------|
|5--------------------------------------0--------------7^-5--555500-|


|------------------------------------9\7----------------------------|
|-------------------5-5-6-7------5----------------------------------|
|--0-5-----555500-7---------0-5h7--0----5---555555-7-5--------------|
|5^----------------------------------------------------7^-5-5-5-00--|


|------------------------------------------|
|------------------------------------------|
|--00-0-00-00-0-00----000---000---000--000-|
|3^-------3^--------3^----3^----3^---3^----|


|---------------------------------------|
|---------------------------------------|
|--00-0-00---00-0-00----00-0-00---0-0-0-|
|3^--------3^---------3^--------3^------|


|-------------------------------------------------------------------|
|-------------------------------------------------------------------|
|--0-0-0---0-0-0----0-0-0--0-0------0-5-----555555-7-7p5------------|
|3^------3^-------3^-----3^----0--5^--------------------7^-5--5-5-0-|


|-------------------------------------------------------------------|
|-------------------------------------------------------------------|
|--0-0-0---0-0-0----0-0-0--0-0------0-5-----555555-7---5---------00-|
|3^------3^-------3^-----3^----0--5^--------------------7^-5--5-5---|


|--------------------------------------------------|
|--------------------------------------------------|
|3-555-5-55355-5-5-3h5-5-5-3h5-5-5-0---------------|
|------------------------------------5-------------|


|------------------7^\-----5-----------------------|
|-----------------------5h7------------------------|
|3h5-5-5-3h5-5-5-5-----------0-7-5-3---------------|
|------------------------------------5-------------|


|-------------------------------------9\7---------------------------|
|-------------------5-5-6-7-----------------------------------------|
|--0-5-----555500-7---------0-5h7-5-0----5---555555-7-5-------------|
|5------------------------------------------------------7^-5-5-5-00-|


|--------------------|
|--------------------|
|--00-0-00---00-0-00-|
|3^--------3^--------|

|21/20/19/18/17/16/15/14/13/12/11/10/9/8/7/6/5/4/3/2/1-
|------------------------------------------------------|
|------------------------------------------------------|
|------------------------------------------------------|

|---------------------------------------|
|---------------------------------------|
|--00-0-00--00--0-00---00-0-0---0--0--0-|
|3^------------3^----3^-------3^--------|


|-------------------------------------------------------------------|
|-------------------------------------------------------------------|
|--0-0-0---0-0-0----0-0-0--0-0------0-5-----555555-7-7p5------------|
|3^------3^-------3^-----3^----0--5^--------------------7^-5----5-0-|


|-------------------------------------------------------------------|
|-------------------------------------------------------------------|
|--0-0-0---0-0-0----0-0-0--0-0------0-5-----555555-7575----------00-|
|3^------3^-------3^-----3^----0--5^--------------------7^-5--5-5---|


|------------------------------------------------|
|------------------------------------------------|
|3-5-5-5-55355-5-55-3h5-5-5-5-3h5-5-5-0----------|
|---------------------------------------5--------|


|------------------7^\-----5----------------------|
|-----------------------5h7--7-5------------------|
|3h5-5-5-3h5-555-5---------------7-0-5-3----------|
|----------------------------------------5--------|


|-------------------------------------9\7---------------------------|
|-------------------5-5-6-7-----------------------------------------|
|--0-5-----555555-7---------0-5h7-5-0----5---5555557-5--------------|
|5----------------------------------------------------7^-5--555500--|

solo

|------------7--------9------------------------------------------|
|---777-----------------0-777----55667-77------------------------|
|--------555----55/777-------5567--------5555-55776655----445567-|
|3/5---5----------------------------------------------7755-------|


|-------------7------9------------------------7-------9-----------|
|5/7-7~------------------77---------7-75----------------7--7-5-5--|
|-------00555-55/777-77---0--56700-0----765-5--555-757--0-----7---|
|-----------------------------------------------------------------|


|----------------------------------------------------------------------|
|7-777--77--------------------------7777-6655--------------------------|
|----0----555-5-55-77-65-------5677-----------055-5-55-77-6655---------|
|-----------------------7^-5-55-------------------------------7^--7--6-|


|------7--------9----------------------7---------9-------------|
|--7--------------/7------5-77777-77---------------7-----------|
|----5--56-7p5-7-----0-5h7----------555--5-6-777-----070-5h7-0-|
|5-------------------------------------------------------------|


|-------------------------------------------------------------|
|5h7-7766-----------------------------------------------------|
|---------7-65555007-7--------------0-5--5555007-5------------|
|----------------------3-5--555505^---------------7^-5--55550-|


|--------------------------------------------------------------|
|----------------778-9~-----7-9797-----------------------------|
|--0-7--7777700-9------007h9------9^-7--777777-9-7-------------|
|7-------------------------------------------------9^-7---7-00-|

|---------------------------------------|
|---------------------------------------|
|---------------------------------------|
|5-77-7-77-5-77-7-77-5-77-7-7-5--7-7-7--|


|-----------------------------------------|
|-----------------------------------------|
|-----------------------------------------|
|5h7-7-7-7-5h7-7-7-7--5h7-7-7-7-5h7-7-7-0-|


|----------------------------------|
|----------------------------------|
|----0-7---777777-9-7--------------|
|7^-------------------9^-7---7-7-7-|


|----------------------------------------|
|----------------------------------------|
|----------------------------------------|
|5h7-7-7-7-5h7-7-7-7-5h7-7-7-7-5h7-7-7-0-|


|-----------------------------------|
|-----------------------------------|
|----0-7---777777-9-7-----------0-0-|
|7^-------------------9^-7---7-7----|

|------------------------------------------|
|------------------------------------------|
|577-7-77577-7-7-5h7-7-7-7-5h7-7-7---------|
|----------------------------------7-7-----|

|------------------11\9-----7------------------|
|-----------------------7h9----9-7-------------|
|5h7-7-7-5h7-7-7------------------9-7----------|
|------------------------------------9-8-7-----|


|----------------------------------11\9-------------------------------|
|-----------------7-7-8-9~------7------------------------------7-9-7--|
|---0-7--777777-9----------0-7h9--0---0--7--777777-9-7------7h9-----9-|
|7^----------------------------------------------------9^-7-----------|


|------------------------------------------------------------------|
|-------------------7-7-8-9-------7-9-7-9-7------------------------|
|----0-7---777777-9---------0-7h9-----------9^-7--777777-9-7-------|
|7^----------------------------------------------------------9^-7--|
Band nameThe Who »
Song nameSummertime Blues »
Tab typeBass tab »
Added07/13/2008
Size7.28 Kb
File formattxt
Views/Loads1/0
Rate it
Rating: 0
Please, enter the code for download file: Wrong code.


Add comment: