All tabs: 1,331,485    Guitar tabs: 608,686    Guitar pro tabs: 182,446    Chords: 247,278    Piano tabs: 36,094    Bass tabs: 120,116    Power tabs: 23,868    Drum tabs: 10,823    Lyrics: 102,174
We love you! Do you like us?
Bands » The Who » Boris The Spider » Bass tab

Boris The Spider by The Who bass tab

This is the final page that leads you directly to the Guitar Pro tab, drum tab, bass guitar tab, piano chord, etc you've chosen. This page provides information concerning Boris The Spider bass tab such as its format, type of tab or chord, upload date, number of views, number of downloads and rating of this tab provided by users.

If the tab you have selected is a downloadable one (mostly these are The Who Guitar Pro tabs), you need to insert so called "captcha" code and click "download" button. In case the code is correct you will be redirected to download page where your Boris The Spider gp4 file will be prepared. If you have entered wrong "captcha" code, you will be asked to insert it once again to get your Boris The Spider bass tab.

If you browse all The Who tabs or open the list of tabs and chords for Boris The Spider, you can see there are not only Guitar Pro tabs. Guitar tabs and chords, piano & power tabs, drum tabs, bass tabs - they all can be not only in Guitar Pro file format, but also in txt. In this case no special program is needed to read the tab. All you need to do it to open such Boris The Spider tab and you will see it displayed. If you wish, you can download our free tabs in txt.

tries to expand tabs database, adding new and hot songs as well as old and beloved melodies, so our archive could suit any person. Also we try to add chords and files for different music instruments, for example, you can find The Who acoustic guitar tabs, piano chords or power tabs. Many songs like Boris The Spider have not only Boris The Spider bass tab type, but provide wide selection of chords and tabs for all instruments. We also try to add more The Who Guitar Pro tabs as they can bear data for whole band including sheet music.

Our newest addition - The Who lyrics - is viewed the same. Select "lyrics" in the list of the tabs and chords and the text will be displayed on the next page.

Boris The Spider by The Who bass tab (text):

Artist:	The Who
Title:	Borris The Spider






this is the RIGHT TAB, i listen to the who alot and i can play
this song blind folded.
listen to the song to get the timeings

chores
|-----------------1-3333333-----------------------------|
|-----0h5-4-3-2-1---------------------------------------|
|-------------------------------------------------------|x2
|-------------------------------------------------------|


verse
|-------------------------------------------------------|
|-----55----------33333333------------------------------|
|---------------3---------------------------------------|
|--------55--33-----------------------------------------|

|-------------------------------------------------------|
|-------------------------------------------------------|
|-------55---3/55555555---------------------------------|
|-----55---33-------------------------------------------|

|-------------------------------------------------------|
|-----------33333333------------------------------------|
|-------55----------------------------------------------|
|-----55--3---------------------------------------------|


|-------------------------------------------------------|
|-------------------------------------------------------|
|-------55---3/55555555---------------------------------|
|-----55---33-------------------------------------------|


if you have any trouble with this email me at
 "crippledskater123@hotmail.com"
Band nameThe Who »
Song nameBoris The Spider »
Tab typeBass tab »
Added07/13/2008
Size1.9 Kb
File formattxt
Views/Loads1/1
Rate it
Rating: 0
Please, enter the code for download file: Wrong code.


Add comment: