All tabs: 1,331,484    Guitar tabs: 608,685    Guitar pro tabs: 182,446    Chords: 247,278    Piano tabs: 36,094    Bass tabs: 120,116    Power tabs: 23,868    Drum tabs: 10,823    Lyrics: 102,174
We love you! Do you like us?
Bands » Static-x » Wisconsin Death Trip » Guitar tab

Wisconsin Death Trip by Static-x guitar tab

This is the final page that leads you directly to the Guitar Pro tab, drum tab, bass guitar tab, piano chord, etc you've chosen. This page provides information concerning Wisconsin Death Trip guitar tab such as its format, type of tab or chord, upload date, number of views, number of downloads and rating of this tab provided by users.

If the tab you have selected is a downloadable one (mostly these are Static-x Guitar Pro tabs), you need to insert so called "captcha" code and click "download" button. In case the code is correct you will be redirected to download page where your Wisconsin Death Trip gp4 file will be prepared. If you have entered wrong "captcha" code, you will be asked to insert it once again to get your Wisconsin Death Trip guitar tab.

If you browse all Static-x tabs or open the list of tabs and chords for Wisconsin Death Trip, you can see there are not only Guitar Pro tabs. Guitar tabs and chords, piano & power tabs, drum tabs, bass tabs - they all can be not only in Guitar Pro file format, but also in txt. In this case no special program is needed to read the tab. All you need to do it to open such Wisconsin Death Trip tab and you will see it displayed. If you wish, you can download our free tabs in txt.

tries to expand tabs database, adding new and hot songs as well as old and beloved melodies, so our archive could suit any person. Also we try to add chords and files for different music instruments, for example, you can find Static-x acoustic guitar tabs, piano chords or power tabs. Many songs like Wisconsin Death Trip have not only Wisconsin Death Trip guitar tab type, but provide wide selection of chords and tabs for all instruments. We also try to add more Static-x Guitar Pro tabs as they can bear data for whole band including sheet music.

Our newest addition - Static-x lyrics - is viewed the same. Select "lyrics" in the list of the tabs and chords and the text will be displayed on the next page.

Wisconsin Death Trip by Static-x guitar tab (text):

band:    Static-X 
song:    Wisconsin Death Trip 
album:   Wisconsin Death Trip 
tuning:  C F A# D# G C 
tabbed by:	ibanez27

INTRO    
|-x-x---x-x-x-x-| 		|-x-x---x-x-x---| 
|-x-x---x-x-x-x-|   play 7x	|-x-x---x-x-x---| 
|-x-x---x-x-x-x-|    then:	|-x-x---x-x-x---| 
|-x-x---x-x-x-x-| 		|-x-x---x-x-x---| 
|-x-x---x-x-x-x-| 		|-x-x---x-x-x-7-| 
|-x-x---x-x-x-x-| 		|-x-x---x-x-x-0-| 

VERSE 1 play 12x 
|---------------| 
|---------------| 
|---------------| 
|-7---------7---| 
|-7-7---7-7-7-7-| 
|-5-0---0-0-5-0-| 

BRIDGE - Bass only 
Play this right before the next verse 
  |-3-| |-3-|	(triplets)
|-x-x-x-x-x-x-| 
|-x-x-x-x-x-x-| 
|-x-x-x-x-x-x-| 
|-x-x-x-x-x-x-| 
|-x-x-x-x-x-x-| 
|-x-x-x-x-x-x-|  

VERSE 2 play Verse 1 8x 

CHORUS 1 play 8x 
|---------------| 
|---------------| 
|---------------| 
|-8-7---8-7-8-7-| 
|-8-7---8-7-8-7-| 
|-6-5---6-5-6-5-| 

BRIDGE 2  
|-x-x---x-x-x-x-| 		|-x-x---x-x-x---| 
|-x-x---x-x-x-x-|  play 3x	|-x-x---x-x-x---| 
|-x-x---x-x-x-x-|   then:	             |-x-x---x-x-x---| 
|-x-x---x-x-x-x-| 		|-x-x---x-x-x---| 
|-x-x---x-x-x-x-| 		|-x-x---x-x-x-7-| 
|-x-x---x-x-x-x-| 		|-x-x---x-x-x-0-| 

VERSE 3 same as Verse 2 (play Verse 1 8x)

CHORUS 2 
 play	|---------------|
 Chorus 1    |---------------| 
 4x then	|---------------| 
 play 	|-3-2---3-2-3-2-| 
 this 4x:	|-3-2---3-2-3-2-| 
 	|-1-0---1-0-1-0-|  
 
INTERLUDE play 9x 
|--------------------------| 
|--------------------------| 
|--------------------------| 
|--------------------------| 
|--------------------------| 
|-0--0--0--0-0--0--0-0--0--| 
  pm..................... 

|-12--12--12--12-12--12--12-12--12-| 
|----------------------------------| 
|----------------------------------| 
|----------------------------------| 
|----------------------------------| 
|----------------------------------| 

play 8x 
|--------------------------| 
|--------------------------| 
|--------------------------| 
|--------------------------| 
|--------------------------| 
|-0--0--0--0-0--0--0-0--0--| 
  pm..................... 

CHORUS 3 play Chorus 1 8x 

VERSE 4 play Verse 1 8x 

OUTRO play 7x 
|-------------------------------| 
|-------------------------------| 
|-------------------------------| 
|-------------------------------| 
|-------------------------------| 
|-0--0--0--0-0--0--0-0--0-0-0-0-| 
  pm........................... 

End on 
|--------------------------| 
|--------------------------| 
|--------------------------| 
|-2--2--2--2-2--2--2-2--2--| 
|-2--2--2--2-2--2--2-2--2--| 
|-0--0--0--0-0--0--0-0--0--| 
  pm.....................

That's it!  Not too hard, but if you have any questions, changes, 
suggestions, email me at da_haus03@yahoo.com

Visit www.directTABS.com for more free tablature!
Band nameStatic-x »
Song nameWisconsin Death Trip »
Tab typeGuitar tab »
Added07/01/2008
Size2.76 Kb
File formattxt
Views/Loads1/0
Rate it
Rating: 0
Please, enter the code for download file: Wrong code.


Add comment:


Comments (1)
Terrell Swaney

2022-06-13 19:22:55

We recognize that seeking work is challenging, and also finding your desire job is much more tough. We strive to offer you the most pertinent job openings. Look for jobs in your location and also make use of occupation tools to learn about business, salaries, and also other possibilities for progress. Companies are now hiring! To start, most likely to this internet site: https://afflat3e1.com/lnk.asp?o=23572&c=918277&a=193354&k=30E7138C2F0BD33E0310A50C95A77059&l=24604