All tabs: 1,331,484    Guitar tabs: 608,685    Guitar pro tabs: 182,446    Chords: 247,278    Piano tabs: 36,094    Bass tabs: 120,116    Power tabs: 23,868    Drum tabs: 10,823    Lyrics: 102,174
We love you! Do you like us?
Bands » Carlos Santana » Luz Amor Y Vida » Guitar tab

Luz Amor Y Vida by Carlos Santana guitar tab

This is the final page that leads you directly to the Guitar Pro tab, drum tab, bass guitar tab, piano chord, etc you've chosen. This page provides information concerning Luz Amor Y Vida guitar tab such as its format, type of tab or chord, upload date, number of views, number of downloads and rating of this tab provided by users.

If the tab you have selected is a downloadable one (mostly these are Carlos Santana Guitar Pro tabs), you need to insert so called "captcha" code and click "download" button. In case the code is correct you will be redirected to download page where your Luz Amor Y Vida gp4 file will be prepared. If you have entered wrong "captcha" code, you will be asked to insert it once again to get your Luz Amor Y Vida guitar tab.

If you browse all Carlos Santana tabs or open the list of tabs and chords for Luz Amor Y Vida, you can see there are not only Guitar Pro tabs. Guitar tabs and chords, piano & power tabs, drum tabs, bass tabs - they all can be not only in Guitar Pro file format, but also in txt. In this case no special program is needed to read the tab. All you need to do it to open such Luz Amor Y Vida tab and you will see it displayed. If you wish, you can download our free tabs in txt.

tries to expand tabs database, adding new and hot songs as well as old and beloved melodies, so our archive could suit any person. Also we try to add chords and files for different music instruments, for example, you can find Carlos Santana acoustic guitar tabs, piano chords or power tabs. Many songs like Luz Amor Y Vida have not only Luz Amor Y Vida guitar tab type, but provide wide selection of chords and tabs for all instruments. We also try to add more Carlos Santana Guitar Pro tabs as they can bear data for whole band including sheet music.

Our newest addition - Carlos Santana lyrics - is viewed the same. Select "lyrics" in the list of the tabs and chords and the text will be displayed on the next page.

Luz Amor Y Vida by Carlos Santana guitar tab (text):

Date: Wed, 12 May 2004 12:19:13 -0700
From: Dave Moeller 
Subject: s/santana/luz_amor_y_vida.tab

Luz Amor Y Vida
By Carlos Santana from the Santana Brothers CD

Author's Notes:
This is my first tab, of one of my favorite songs
by Carlos. After years of searching the web
for this song, I finally decided to try it myself.
I worked out the tab on my acoustic guitar, so I don't
 have any recommendations on how to play it on an electric.
The solo/outro still needs to be tabbed.
Feedback will be appreciated...

Intro
|-0----------------------------------------------|
|-1----------------------------------------------|
|-2------2---------------------------------------|
|-2----2----------------------------------7-9-10-|
|-0--0-----0-----------------------7-9-10--------|
|------------------------------------------------|


|--------------12---------19p17p15-h-17(17)----12|
|------------------------------------------------|
|-7---9------------------------------------------|
|------------------------------------------------|
|------------------------------------------------|
|------------------------------------------------|


|-15---15)-----------------------------12-(12)-13|
|------------------------------------------------|
|------------------------------------------------|
|------------------------------------------------|
|------------------------------------------------|
|------------------------------------------------|


|-15p13p12-15p13p12-15p13-12-13-12------------------
|----------------------------------15-13-12-15-13-12
|---------------------------------------------------
|---------------------------------------------------
|---------------------------------------------------
|---------------------------------------------------

-----------------------------------------|
----13-12-------12-----------------------|
-14-------14-12----14-12-10--14-12-10-9--|
-----------------------------------------|
-----------------------------------------|
-----------------------------------------|


|------------------------------------------------|
|------------------------------------------------|
|-12-10-9--7--4-5/7-9~7h9------------------------|
|-----------------------------9-9-9------9-------|
|------------------------------------11------11--|
|------------------------------------------------|


|---------------------------------------------10-|
|--------------------------------8-10-8-12-10----|
|----------9~~~-----------7-9-10-----------------|
|----9-------------------------------------------|
|------------------------------------------------|
|------------------------------------------------|
|                                                |
| #2 Guitar (Acoustic)                           |
|------------------------------------------------|
|------------------------------------------------|
|------------------------------------------------|
|------------------------------------------------|
|---------------------------------------2////////|
|------------------------------------------------|


|-----12/13~12-----12----------------------------------|
|13-----------15-13---15-13-12-15-13-12h13p12-(12)\10--|
|------------------------------------------------------|
|------------------------------------------------------|
|------------------------------------------------------|
|------------------------------------------------------|
|                                                      |
| #2 Guitar (Acoustic)                                 |
|------------------------------------------------------|
|------------------------------------------------------|
|------------------------------------------------------|
|------------------------------------------------------|
|///8----------(8)-------------(8)---------------------|
|------------------------------------------------------|


|-------12--10-----------------------------------------|
|---------------13-12h13p12-9-10-12-13-12-10-9-(9)\7\5-|
|------------------------------------------------------|
|------------------------------------------------------|
|------------------------------------------------------|
|------------------------------------------------------|
|                                                      |
| #2 Guitar (Acoustic)                                 |
|------------------------------------------------------|
|------------------------------------------------------|
|------------------------------------------------------|
|------------------------------------------------------|
|----------------2///////////////7-------------(7)-----|
|------------------------------------------------------|


|------------------------------------------------------|
|------------------------------------------------------|
|------------------------------------------------------|
|------------------------------------------------------|
|------------------0-2b-0-3----------------------------|
|-------------0-3b----------3b-0-----------------------|
|                                                      |
| #2 Guitar (Acoustic)                                 |
|------------------------------------------------------|
|------------------------------------------------------|
|------------------------------------------------------|
|------------------------------------------------------|
|--------------------------------------------------2///|
|------------------------------------------------------|


|----------------------13--12------------------------------|
|-----------12--10--------------15-13-12-15-13-12---12h13--|
|-------------------------------------------------14-------|
|----------------------------------------------------------|
|----------------------------------------------------------|
|----------------------------------------------------------|
|                                                          |
| #2 Guitar (Acoustic)                                     |
|----------------------------------------------------------|
|----------------------------------------------------------|
|----------------------------------------------------------|
|----------------------------------------------------------|
|/////8----------------(8)---------------------------------|
|----------------------------------------------------------|


|----------------------------------------------------------|
|-12-------12----------------------------------------------|
|----14-12----14-12-10-9----------9-10-10/12\10---10p9h10--|
|------------------------12-10-12--------------------------|
|----------------------------------------------------------|
|----------------------------------------------------------|
|                                                          |
| #2 Guitar (Acoustic)                                     |
|----------------------------------------------------------|
|----------------------------------------------------------|
|----------------------------------------------------------|
|----------------------------------------------------------|
|----------------------2//////////7--------------------(7)-|
|----------------------------------------------------------|


|----------------------------------------12--------(12)-------|
|-------------------------------------------------------------|
|----------------------9-9-7--9--7--9-------------------------|
|-9-9-9-----9--9----------------------------------------------|
|-------11----------------------------------------------------|
|-------------------------------------------------------------|

-softly, (barely audible)-
|------------------------------|------------------------------|
|----------------1---1---1---1-|-3---3---3---3---1---1---1---1|
|----------------2---2---2---2-|-2---2---2---2---2---2---2---2|
|----------------2---2---2---2-|-2---2---2---2---2---2---2---2|
|----------------0---0---0---0-|-0---0---0---0---0---0---0---0|
|------------------------------|------------------------------|

Riff 1 (4 times)
|-------------------------------------------------------------|
|-------------------------------------------------------------|
|-------------------------------------------------------------|
|--10-(10)\7--7--7--7--7--7-----------------------------------|
|---------------------------------12-(12)\7--7--7--7--7--7----|
|-------------------------------------------------------------|


|------------------------------|------------------------------|
|------------------------------|------------------------------|
|-9b(9)-9-9b~-----7-7----9b-7--|---7--7p5--9b--7---7----------|
|--------------10-----10-------|---------------------10-9--7--|
|------------------------------|------------------------------|
|------------------------------|------------------------------|


|------------------------------|------------------------------|
|------------------------------|------------------------------|
|-------9b--5/7---5-7-7-7-5--9-|-7----7-7-7p5-9-7---7---------|
|------------------------------|----------------------10-9--7-|
|------------------------------|------------------------------|
|------------------------------|------------------------------|


|----8-------------------------|-----8------------------------|
|------10---10b----------------|---8---10---10b---------------|
|--9--------------9-7-5/7-(7)~-|--9-------------7---7----9b-7~|
|------------------------------|----------------------10------|
|------------------------------|------------------------------|
|------------------------------|------------------------------|


|------8-----------------------|-------8---------------------|
|----9---10(10)----------------|---------10------------------|
|---9------------9-7-5---7p5h7-|-----9---------9-7-5---7p5h7-|
|----------------------7-------|---------------------7-------|
|------------------------------|-----------------------------|
|------------------------------|-----------------------------|

Riff 1 (2 times)
|-------------------------------------------------------------|
|-------------------------------------------------------------|
|-------------------------------------------------------------|
|-----10-(10)\7--7--7--7--7--7--------------------------------|
|---------------------------------12-(12)\7--7--7--7--7--7----|
|-------------------------------------------------------------|


|------------------------------|------------------------------|
|------------------------------|------------------------------|
|-9b(9)-9-9b~-----7-7----9b-7--|---7--7p5--9b--7---7----------|
|--------------10-----10-------|---------------------10-9--7--|
|------------------------------|------------------------------|
|------------------------------|------------------------------|


|---8--------------------------|------------------------------|
|-----10-----------------------|------------------------------|
|-9---------9b--5/7--5-7-7-5--9|-7----5-7-7-5-9-7---7---------|
|------------------------------|----------------------10-9--7-|
|------------------------------|------------------------------|
|------------------------------|------------------------------|


|----8-------------------------|-----8------------------------|
|------10---10b----------------|---8---10---10b---------------|
|--9--------------9-7-5/7-(7)~-|--9-------------7---7----9b-7~|
|------------------------------|----------------------10------|
|------------------------------|------------------------------|
|------------------------------|------------------------------|


|-----8------------------------|-----8------------------------|
|---8---10---------------------|---8---10\8-------------------|
|--9---------7/9-9-7-5-5-7/9-7-|--9----------9-9\7\5--9-7p5h7\|
|------------------------------|------------------------------|
|------------------------------|------------------------------|
|------------------------------|------------------------------|


|------------------------------|------------------------------|
|----------------------------8-|(8)/10-(10)~~-----------------|
|9-9p7---------9-9-9-10-9--7---|------------------5-5-7p5--4--|
|-------10-7-------------------|------------------------------|
|------------------------------|------------------------------|
|------------------------------|------------------------------|


|------------------------------|------------------------------|
|------------------------------|-10-8/10----------------------|
|9b-(9)b---7-------9-9-9-10-9-7|-------------------------7----|
|------------10-9--------------|---------10--10-10-10-10--10-9|
|------------------------------|------------------------------|
|------------------------------|------------------------------|


|-------------------------------------------------------------|
|-----------------[     Play riff 1 4 times     ]-------------|
|9b-(9)----7--------------------------------------------------|
|------------10-9--10\7-7-7-7-7-------------------------------|
|---------------------------------12\7-7-7-7-7-7--------------|
|-------------------------------------------------------------|

Solo/Outro Starts Here
Band nameCarlos Santana »
Song nameLuz Amor Y Vida »
Tab typeGuitar tab »
Added05/08/2008
Size13.17 Kb
File formattxt
Views/Loads1/42
Rate it
Rating: 4.0
Please, enter the code for download file: Wrong code.


Add comment:


Comments (1)
Alejandro

2022-03-16 09:33:08

Considero que es un buen trabajo, solo que falta el final una notas más rrifs